#AsuultSambar :

ASUULT.NET - МОНГОЛ УЛС МАНДАН БАДРАГ!
It is currently Oct.23.18 4:21 am

All times are UTC+09:00




Post new topic  Reply to topic  [ 92 posts ]  Go to page Previous 1 2 3 4 Next
Author Message
 Post subject: Re: НИКИТОН
PostPosted: Feb.21.10 5:53 am 
Offline
Гишvvн
User avatar

Joined: Feb.16.08 4:20 pm
Posts: 3403
Location: Death is certain, Life is not!
bi chamd hairtai :wd: aibna uu

_________________
цус


Top
   
 Post subject: Re: НИКИТОН
PostPosted: Feb.21.10 6:14 am 
Offline
Хавар Цагийн Анхны Яргуй
User avatar

Joined: Nov.01.08 3:39 am
Posts: 3043
Rape_me wrote:
bi chamd hairtai :wd: aibna uu

http://www.asuultserver.com/mongolduu/g ... hp?ID=6178
"." tseg deer dardishde duha :frog:


Top
   
 Post subject: Re: НИКИТОН
PostPosted: Feb.24.10 11:13 pm 
Offline
Эргэх Хvслийн Эрчлээ Гишvvн
User avatar

Joined: Dec.22.06 12:39 am
Posts: 2030
Location: Темер замын ууган оршин суугч
Би чамд хайртай гоё дуу болсон бналэээ :-D

_________________
Зүгээр хүн


Top
   
 Post subject: Re: НИКИТОН
PostPosted: Feb.25.10 7:04 pm 
Offline
Эргэх Хvслийн Эрчлээ Гишvvн
User avatar

Joined: Dec.22.06 12:39 am
Posts: 2030
Location: Темер замын ууган оршин суугч
Хамтлаг Niciton
Дуу Nandin shvteen


Am |x02210|
Abm |466444|
B |x24442|
Bb |x13331|
Bbm |x13321|
C |x35553|
Dm |xx0231|
Db |x46664|
Ebm |xx1342|
F |133211|
Gm |355333|
Gb |244322|



F Gm
HVVE JOLOOCHOO HURDAA JOOHON HASAAD OGOOCH
C F
HVREH GAZRAA TIIM HURDAN OCHMOORGVI BNA
Dm Gm
VNENDEE BI OOR HVVHNEES HARIJ YAUNA
C F
VGVIEE ENE BOL HAIR BISH BSAN


HAMAG VNENEE OORT CHINI BI YARIMAAR BNA
HARIN OOR HVND HEZEECH BVV HELEEREI
VVRDIIN BISH ZUURDIIN SHONIIN JARAGLAAR
VNENCH TVVNIIGEE BI HUURSAN

Chorus:
Bb Am
NULIMASTAI GARAARAA ZVVZ OGSON
Dm Gm
NANDIN SHVTEEN NAMAIG ORSHOO
Bb F
NUUSAN NULIMAS CHINI NVDEND CHINI BISH GART CHINI VLDSEN
Gm C
NAMAIG URWAJ BUTSAHAAS AWARCH ORSHOO SHVTEEN MINI


TER DURLAL NAMAIG DAHIN BVV HOGLOOCH
TEGTLEE CHAMAIG BI ZOWOOMOORGVI BNA
UUCHILJ CHADAH HAIRIIN TER SETEGLIIG CHINI
URT BISH JARGALAAR SOLICHIHLOO

Chorus:

NULIMASTAI GARAARAA ZVVZ OGSON
NANDIN SHVTEEN NAMAIG ORSHOO
NUUSAN NULIMAS CHINI NVDEND CHINI BISH GART CHINI VLDSEN
NAMAIG URWAJ BUTSAHAAS AWARCH ORSHOO SHVTEEN MINI


MIddle Solo:

|----15b17------13----------12b13--12b13----12b13--------------------13--12b13-----------10-------------|
|-13----------------15-----------------------------15p-13p-10p-13-15------------13-10-13----13----------|
|----------------------------------------------------------------------------------------------12b14r===|
|-------------------------------------------------------------------------------------------------------|
|-------------------------------------------------------------------------------------------------------|
|-------------------------------------------------------------------------------------------------------|


|------------------------------------------------------------------------------------------------------------------------|
|-------------------------------11-12-13---------------------------------------------------------------------------------|
|-10-------------10-12b14-12b14----------14-12b14--12-10-12b14------12b14--12b14-12b14-12b14-12b14-12b14-12b14-12b14-10--|
|--------h10-12----------------------------------------------------------------------------------------------------------|
|------------------------------------------------------------------------------------------------------------------------|
|------------------------------------------------------------------------------------------------------------------------|


|----18b20-----17-16--15-13-15b17--13------------13--15-15b17-15b17-------------13-15b17-13-----13-15-17-18-15b17-15-13--|
|-13----------------------------------15--13b15---------------------18p-15p-13p--------------15--------------------------|
|------------------------------------------------------------------------------------------------------------------------|
|------------------------------------------------------------------------------------------------------------------------|
|------------------------------------------------------------------------------------------------------------------------|
|------------------------------------------------------------------------------------------------------------------------|


|----------13-15-15b17-------15-17-17b18---17--18-18b20--------20b21----|
|-15-13-13--------------------------------------------------------------|
|-----------------------------------------------------------------------|
|-----------------------------------------------------------------------|
|-----------------------------------------------------------------------|
|-----------------------------------------------------------------------|

B Bbm
NAMAIG ORSHOO NANDIN SHVTEEN
Ebm Abm
NANDIN SHVTEEN NAMAIG ORSHOO
B Gb
NUUSAN NULIMAS CHINI NVDEND CHINI BISH GART CHINI VLDSEN
Abm Db
NAMAIG URWAJ BUTSAHAAS AWARCH ORSHOO ORSHOO








Ending Solo:

1
|-1314----14-----14-------13-13--14----11-11-12-|
|------------------------------------------------|
|------------------------------------------------|
|------------------------------------------------|
|------------------------------------------------|
|------------------------------------------------|


|----------------------------------------|
|-16--14-12--14--1214-------------------|
|-----------------------18-16--14--14----|
|-------------------------------------16-|
|----------------------------------------|
|----------------------------------------|


|-------14----1214-14-14-1214-|-14-14-12-14-1719----|
|----14----14-------------------|----------------------|
|-14----------------------------|----------------------|
|-------------------------------|----------------------|
|-------------------------------|----------------------|
|-------------------------------|----------------------|


|-17-14h17p14----------------------------|----------------------------|
|-------------17h19p17-14h17p14----------|----------------------------|
|-------------------------------16h18p16-|-14h16p14-------------------|
|----------------------------------------|----------16h19p16-14-16----|
|----------------------------------------|----------------------------|
|----------------------------------------|----------------------------|


~~~~~~~~~~~~~~~~~~~~~~~~~~~~~~~~~~~~~~~~~~~~~~~~~~~~~~~~~~~~~~~~~

2
|-1618---19--1618-------------14-16-1618-1618--------14-13h14-|
|---------------------19--16-14-----------------------------------|
|-----------------------------------------------------------------|
|-----------------------------------------------------------------|
|-----------------------------------------------------------------|
|-----------------------------------------------------------------|


|--------------13-14---------------13-14-|
|-16--14-11-14--------16--14-11-14-------|
|----------------------------------------|
|----------------------------------------|
|----------------------------------------|
|----------------------------------------|


|---------------13-14---------------13-14-|--------------13-14--14----14-|
|--16--14-11-14--------16--14-11-14-------|-16--14-11-14-----------------|
|-----------------------------------------|------------------------------|
|-----------------------------------------|------------------------------|
|-----------------------------------------|------------------------------|
|-----------------------------------------|------------------------------|


~~~~~~~~~~~~~~~~~~~~~~~~~~~~~~~~~~~~~~~~~~~~~~~~~~~~~~~~~~~~~~~~~

3
|----------18----------------18----------------18-----------------18----18-----------------------18-------|
|----16-19----19-16----16-19----19-16----16-19----19--16----16-19----19----19-16-----16----16-19----19-16-|
|-18----------------18----------------18-----------------18-----------------------18----18----------------|
|---------------------------------------------------------------------------------------------------------|
|---------------------------------------------------------------------------------------------------------|
|---------------------------------------------------------------------------------------------------------|


|----------19-----19----18----16-----------------19----19-|
|----16-19-----19----19----19----19-16----16--19----19----|
|-18-----------------------------------18-----------------|
|---------------------------------------------------------|
|---------------------------------------------------------|
|---------------------------------------------------------|


|----18----16----16------------------------18----18----|
|-19----19----19----19--16-----16----16-19----19----19-|
|--------------------------18-----18-------------------|
|------------------------------------------------------|
|------------------------------------------------------|
|------------------------------------------------------|


|-18h21p18h21p18----18h21p18-----------21p18h21p18----21p18h21p18h21-|
|----------------19-----------19h21p19-------------19----------------|
|--------------------------------------------------------------------|
|--------------------------------------------------------------------|
|--------------------------------------------------------------------|
|--------------------------------------------------------------------|


|----------18p16p14--17h18p17h18p17----17h19p17h19p17h19p17-14h17p14h17p14----14-|
|-19h21p19--------------------------19-------------------------------------14----|
|--------------------------------------------------------------------------------|
|--------------------------------------------------------------------------------|
|--------------------------------------------------------------------------------|
|--------------------------------------------------------------------------------|


|-17-----------12h14p12----14p12------------------------------------------------|
|----14h17p14-----------14--------14h17p14--12h14p=12----------12--11------11---|
|-----------------------------------------------------14p11-14------------------|
|-------------------------------------------------------------------------------|
|-------------------------------------------------------------------------------|
|-------------------------------------------------------------------------------|


~~~~~~~~~~~~~~~~~~~~~~~~~~~~~~~~~~~~~~~~~~~~~~~~~~~~~~~~~~~~~~~~~~~~~~~~~~~~~~~~

4
|-------14-14-14-------14-14-14-|-------14-14-14-------14-14-14-|
|-1214-14-14-14-1214-14-14-14-|-1214-14-14-14-1214-14-14-14-|
|-------------------------------|-------------------------------|
|-------------------------------|-------------------------------|
|-------------------------------|-------------------------------|
|-------------------------------|-------------------------------|


|-------14-14-14-------14-14-14-|-19-14-14-14--------------------------14-|
|-1214-14-14-14-1214-14-14-14-|-14-14-14-14-14-14-14-14-14-14-14-14-----|
|-------------------------------|-----------------------------------------|
|-------------------------------|-----------------------------------------|
|-------------------------------|-----------------------------------------|
|-------------------------------|-----------------------------------------|


|-14-17-14----14-1214--14-12-14-12-14p12---|-11h12p-11---------------------------|
|----------14-------------------------------|------------14--12--14----11h12p-11--|
|-------------------------------------------|-------------------------------------|
|-------------------------------------------|-------------------------------------|
|-------------------------------------------|-------------------------------------|
|-------------------------------------------|-------------------------------------|


|-----------------------------|---------|-14----|
|-----------------------------|---------|-14----|
|-11-13-11-13-11-13-11-13-11--|---------|-15----|
|-----------------------------|---------|-16----|
|-----------------------------|-11b-----|-16----|
|-----------------------------|---------|-14----|

_________________
Зүгээр хүн


Top
   
 Post subject: Re: НИКИТОН
PostPosted: Mar.04.10 11:25 pm 
Offline
Самбарын Хvндэт Гишvvн
User avatar

Joined: Jan.18.07 5:04 pm
Posts: 2101
P.S wrote:
Би чамд хайртай гоё дуу болсон бналэээ :-D

goy bish bur aimar duu

_________________
Gunners!Go.


Top
   
 Post subject: Re: НИКИТОН
PostPosted: Mar.04.10 11:28 pm 
Offline
Самбарын Хvндэт Гишvvн
User avatar

Joined: Jan.18.07 5:04 pm
Posts: 2101
yamarch bsn togloltiig n uzmeer bdiin uneheer goyoo helehch ug algaduu humuus medne biz yamar hamtlag gdgiign :l2: :l2: :l2:

_________________
Gunners!Go.


Top
   
 Post subject: Re: НИКИТОН
PostPosted: Mar.05.10 12:35 am 
Offline
Tesseract Club Member
User avatar

Joined: Aug.23.05 8:06 pm
Posts: 2960
Location: АСУУЛТ.net

_________________
B4 FB, JB was cool, ASUULT.Net


Top
   
 Post subject: Re: НИКИТОН
PostPosted: Mar.05.10 7:18 pm 
Offline
Самбарын Хvндэт Гишvvн
User avatar

Joined: Jan.18.07 5:04 pm
Posts: 2101
tsamtsaa tail aimar duu shuu

_________________
Gunners!Go.


Top
   
 Post subject: Re: НИКИТОН
PostPosted: Jun.10.10 7:46 am 
Offline
Гялалзан Бусдын Нvд Гялбуулагч
Гялалзан Бусдын Нvд Гялбуулагч
User avatar

Joined: Nov.18.09 8:56 pm
Posts: 45
Location: hell-city
suuldee hog bolsiishd hos hung sonsood uildag blaa [hairand hagatsahdaa]

_________________
Naraa rock shaajiin


Top
   
 Post subject: Re: НИКИТОН
PostPosted: Jun.10.10 1:50 pm 
Offline
Асуулт Самбарын Хvндэт Манаач

Joined: Sep.25.04 2:14 pm
Posts: 4698
Никитоныг "хог" болгоод зогсчоорой хөгшөөн


Top
   
 Post subject: Re: НИКИТОН
PostPosted: Jun.10.10 2:03 pm 
Offline
Гишvvн

Joined: Nov.05.06 12:42 pm
Posts: 10457
Бараг бүх дуунд н дуртай. Үнэхээр хайрлахгүй байхын аргагүй гоё хамтлаг даа.


Top
   
 Post subject: Re: НИКИТОН
PostPosted: Jun.13.10 5:43 pm 
Offline
Эргэх Хvслийн Эрчлээ Гишvvн
User avatar

Joined: Dec.22.06 12:39 am
Posts: 2030
Location: Темер замын ууган оршин суугч
Гэрэлт Од wrote:
Бараг бүх дуунд н дуртай. Үнэхээр хайрлахгүй байхын аргагүй гоё хамтлаг даа.


Хэлээд яахавээ хее...

_________________
Зүгээр хүн


Top
   
 Post subject: Re: НИКИТОН
PostPosted: Jun.14.10 2:43 am 
Offline
Гялалзан Бусдын Нvд Гялбуулагч
Гялалзан Бусдын Нvд Гялбуулагч
User avatar

Joined: Nov.18.09 8:56 pm
Posts: 45
Location: hell-city
hog blsoon blson haha lol zarim duun ch yaltachgu zurhend orchihson

_________________
Naraa rock shaajiin


Top
   
 Post subject: Re: НИКИТОН
PostPosted: Jun.30.10 2:38 am 
Offline
Самбарын Хvндэт Гишvvн
User avatar

Joined: Jan.18.07 5:04 pm
Posts: 2101
afear-angel wrote:
hog blsoon blson haha lol zarim duun ch yaltachgu zurhend orchihson

chi chn harin uuruu lol garuu gu ui?

_________________
Gunners!Go.


Top
   
 Post subject: Re: НИКИТОН
PostPosted: Jul.01.10 2:55 pm 
Offline
Powered by Asuult Sambar
User avatar

Joined: Mar.04.05 10:58 pm
Posts: 8741
Location: You're not special. You're not a beautiful or unique snowflake. You're same as other 7billion people
gaihaltai hamtlag... zugeerl gaihaltai. ter hog mogoorn duudaad bgaa hun sonin nuhur bna shuu ? er uu emuu ?

_________________
Eat sh*t.


Top
   
 Post subject: Re: НИКИТОН
PostPosted: Jul.01.10 10:45 pm 
Offline
Асуулт Самбарын Хvндэт Харуул
User avatar

Joined: Jun.20.10 10:21 pm
Posts: 7134
P.S wrote:
Гэрэлт Од wrote:
Бараг бүх дуунд н дуртай. Үнэхээр хайрлахгүй байхын аргагүй гоё хамтлаг даа.


Хэлээд яахавээ хее...

:wd:

_________________
WHERE IS MY HERO?


Top
   
 Post subject: Re: НИКИТОН
PostPosted: Jul.01.10 10:51 pm 
Offline
Асуулт Самбарын Хvндэт Манаач
User avatar

Joined: Apr.28.09 5:05 pm
Posts: 4505
Location: dalain ereg deerh ondor havtsaliin oroi deer ooriinhoo barisan baishind
shine uran buteel gargaj bna uu gargasan yum hum bval taviach nuhud mini

_________________
bi hoh tolbotoi mongol


Top
   
 Post subject: Re: НИКИТОН
PostPosted: Jul.05.10 11:37 pm 
Offline
Задрах Бодлын Зангилаа Гишvvн
User avatar

Joined: Jun.28.06 8:05 pm
Posts: 1972
Location: Морин дэл дээр дэлхийн талыг туулсан аугаа баатруудын нутагт...
uurd ene hamtlagiin fan

_________________
Go forward !!!


Top
   
 Post subject: Re: НИКИТОН
PostPosted: Jul.09.10 2:42 pm 
Offline
Эзэрхийлэгч Гишvvн
Эзэрхийлэгч Гишvvн
User avatar

Joined: Feb.20.10 1:02 pm
Posts: 909
Location: Уяхан замбуу тивийн наран дор
hehe Nandin shuteen ch bas l aimar duu l daa laitai heleh vg bhku :wd:
odoo hurtel Nikitoniig guitseh hamtlag manaid garaagui l bna

_________________
Do you speak PRADA?


Top
   
 Post subject: Re: НИКИТОН
PostPosted: Jul.09.10 4:13 pm 
Offline
Аятайхан Гишvvн
Аятайхан Гишvvн
User avatar

Joined: May.04.10 8:21 pm
Posts: 172
Image

Соёл-Эрдэнэ, Баянмонгол, Харанга, Хөх тэнгэр, Титэм, Камертон
Чингис хаан, Айзам, Хурд хайртай та нарыгаа НИКИТОН, НИКИТОН, НИКИТОН дуулж байна.



Бас л гоё дуу шүү, надад 20-оод дуу нь л байдаг.. Гэхдээ дээр үеийнх болохоор гоё байдийн. Янаг цэцэг, Цамцаа тайл, Хос хунгийн дууль гэх мэт..


Top
   
 Post subject: Re: НИКИТОН
PostPosted: Jul.10.10 12:09 pm 
Offline
Задрах Бодлын Зангилаа Гишvvн
User avatar

Joined: Jun.28.06 8:05 pm
Posts: 1972
Location: Морин дэл дээр дэлхийн талыг туулсан аугаа баатруудын нутагт...
nicitonii ballad duunuud uneheer gaihaltai hezee ch uidamgui

_________________
Go forward !!!


Top
   
 Post subject: Re: НИКИТОН
PostPosted: Jul.11.10 3:54 pm 
Offline
Жирийн Нэгэн Гишvvн
Жирийн Нэгэн Гишvvн

Joined: Jul.09.10 2:14 pm
Posts: 15
Location: so high in the sky
NIKITON zugeer l tasarchjeee...... aimar aimar 8)


Top
   
 Post subject: Re: НИКИТОН
PostPosted: Oct.14.10 3:32 pm 
Offline
Асуулт Самбарын Хvндэт Харуул

Joined: Jan.16.05 12:41 am
Posts: 6850
Location: Third Mind
Toglolt moglolt ni namaig ochsonii daraa l bolj uzeesei :frog:

_________________
Invisible touch


Top
   
 Post subject: Re: НИКИТОН
PostPosted: Nov.04.11 1:42 pm 
Offline
Асуулт Самбарын Хvндэт Манаач

Joined: Sep.25.04 2:14 pm
Posts: 4698
хамгийн сүүлийн пост нь бараг жилийн
өмнө бичигдсэн байна даа :hihi:

Маргааш буюу 5-нд Паласт очуул 1-2 дууг
сонсох өндөр магадлалтай даа

Чинбаагийн тогтолт.


Top
   
 Post subject: Re: НИКИТОН
PostPosted: Jan.26.12 1:01 pm 
Offline
Гишvvн
User avatar

Joined: Apr.10.03 12:40 am
Posts: 7751
3 sard toglono gehiin, unen uu

_________________
Уйтгарт цээжнээ наргүйд итгэ


Top
   
 Post subject: Re: НИКИТОН
PostPosted: Jan.26.12 1:40 pm 
Offline
Асуулт Самбарын Хvндэт Манаач

Joined: Sep.25.04 2:14 pm
Posts: 4698
Баачка, Золбоо 2 энд тэнд
хамт явж харагдаад байгаа,
за үнэн байгаасай.
:guitarchin:


Top
   
Display posts from previous:  Sort by  
Post new topic  Reply to topic  [ 92 posts ]  Go to page Previous 1 2 3 4 Next

All times are UTC+09:00


Who is online

Users browsing this forum: No registered users and 4 guests


You cannot post new topics in this forum
You cannot reply to topics in this forum
You cannot edit your posts in this forum
You cannot delete your posts in this forum
You cannot post attachments in this forum

Search for:
Jump to:  

Copyright Asuult.NET © 2000-2015.
Administrative Contact: Khundaga Khurelbaatar [hundaga@hotmail.com]
Tel: 1-888-303-4927, Fax: 1-888-406-2264.
Powered by phpBB © 2000-2015 phpBB Group. Powered by phpBB® Forum Software © phpBB Limited